A B C D E F G H I J K L M N O P Q R S T U V W X Y Z #

Audio

Video Link

Elita 5 - Ç'ka Me Ka Syri


Choose star rating

Rating:  4.6 / Votes cast:  19

Fans' Comments

No Comments 🔥🔥

31/12/1992

1992-12-31T00:00:00

Song from the album:

"Nuk Jam Alkapone"


C'ka mka syri qe me loton
O dhimte e zemres s'un i mban
Dashnori me ka harru
Dhe me tjetren eshte perqafu
Prej vegjelimit dashnine ja kam fale
Tash po shkon me tjeter gale
2x

A e din oj vajze
C'ka je tuj vepru
A e din or djal
C'ka je tuj vepru
Ne rini ne dhe don me me çu
Ne rini ne dhe don me me çu
Kujtimet e mia prape
Prape kam me i vazhdu
Beso more djale
Per ty jam tuj kendu

Kur vjen Pranvera
Lulet lulezojne
Nje tufe lule
Te vorri te mi çojsh
Besome more djale
Per ty jam tuj pushu
Prej vegjelimit dashnine ta kam fale
Tash po shkon me tjeter gale


Lyrics submited by Neta



Chords

fig 1---------------------fig2
--------------7--------7-|--10--12--13----13-13-13--13p12------------
-----------8--------8----|--------------------------------------------------------
--------------------------|-----------------------------------------------------
--------9--------9-------|--------------------------------------------------------
-----7--------------------|------------------------------------------------------
---------------------------|-----------------------------------------------------

---10--12--13--15---10h12------------------------------------------------
------------------------------------15---(15)-----15~~~pak vibrato---
-------------------------------------------------------------------------------
-------------------------------------------------------------------------------
-------------------------------------------------------------------------------
-------------------------------------------------------------------------------
let's rock
fig3------------------------------------------fig4------fig5
-----------------------------------------------|---------|---perserite------
-----------------------------------------------|---------|--dhe te dyten here-
-----------------------------------------------|---------|------5-----------------
-----------------------------------------------|---5--7-|------3--5--------------
---5---555--555---555--555---555------|--3---5-|---------3-----------
---------------------------------------------0-|---------|-------------------
vargun,qe kendon ajo femra vetem si me siper po vetem ne fund
e thyen
fig6
-------------------------------------------------------------------------------
-------------------------------------------------------------------------------
-------------------------------------------------------------------------------
---5----3---5----3----5/3---------------------------------------------------
---3----1---3----1----3/1-------------------------------------------------------
-------------------------------------------------------------------------------


more...




Kjo faqe përdor cookies vetëm për reklama dhe statistika. Kjo faqe nuk mbledh, nuk përdor dhe nuk shpërndan të dhënat tuaja. Kompanitë e palëve të treta që përdorin cookies janë: Google, Taboola dhe MGID.
Më shumë info  
lyrics.al © 2007 - 2018