A B C D E F G H I J K L M N O P Q R S T U V W X Y Z #

Official Video

Video Link

Top 200

Elita 5 - Faleminderit


Choose star rating

Rating:  4.9 / Votes cast:  95

Fans' Comments

No Comments 🔥🔥

31/12/2004

2004-12-31T00:00:00

Song from the album:

"The Best Of"

Song from the album:

"Bardh E Zi"

Participating in

VFM 2005

Participating in

Zhurma Show 2004


Pikoj loti ne mesnate
Se ti ike per te mos u kthyer
po, per te mos u kthyer
Pamjen tende te vertet
E tregon veq pasqyra e thyer
po, pasqyre e thyer

Nuk te thash largohu
As kthehu as harrome
Se per cdo fjal ne jeten tone
Ishe von.

Akrepat bashkohen
Sna takojne askund
Me mir nje fund me dhimbje
Se nje dhimbje pa fund

(refreni)(2x)
Faleminderit qe me le
Sot mos qaj se ike dje dhe jo
Neser kur nata
ne udhkryq te ze
Mos u kthe, mos u kthe
Arsye ske

Nata henen prap e ndez
Ti je ne terrin e kesaj bote
po, e kesaj bote
Ne rrugen tende te pa kthim
Ty te ndjek veq hija jote
po, hija jote

Nuk te thash largohu
As kthehu as harrome
Se per cdo fjal ne jeten tone
Ishe von.

Akrepat bashkohen
Sna takojne askund
Me mir nje fund me dhimbje
Se nje dhimbje pa fund

(refreni)(2x)
Faleminderit qe me le
Sot mos qaj se ike dje dhe jo
Neser kur nata
ne udhkryq te ze
Mos u kthe, mos u kthe
Arsye ske


Lyrics submited by  stafi



Chords

Intro: Dm/Bb/C (x4)

Dm
Pikon loti ne mesnate
—————-Bb
se ti ike per t’mos u kthyer,
Dm–C————F—–A
ooo per tmos u kthyer
Dm
pamjen tende te vertete
—————-Bb
e tregon veç pasqyra e thyer,
Dm—C————F—-A
ooooo pasqyra e thyer

Bb—————-C
Nuk te thashe largohu,
—–F—–C—–Dm
as kthehu, as harrome,
————Bb————-C
se per çdo fjale ne jeten tone,
——-Dm
ishte vone.
Bb———–C
Akrepat bashkohen,
–F—–C——-Dm
s’te takojne askund,
————-Bb——–C
me mire nje fund me dhimbje,
——————-Dm
se nje dhimbje pa fund.

Refren:

Dm————Bb
Faleminderit qe me le,
———C———-A
sot mos qaj se ike dje,
Dm——————Bb
neser kur nata n’udhekryq te te ze,
——-C————-A
mos u kthe, mos u kthe, arsye s’ke. (x2)

Dm
Nata henen prape e ndez,
————-Bb
ti je n’terrin e kesaj bote,
Dm–C———F—A
oooo e kesaj bote.
Dm
Ne rrugen tende te pakthim,
—————–Bb
ty te ndjek veç hija jote,
Dm–C———-F—A
oooo veç hija jote.

(Solo)

E||-----1---3p1--5-5p3-1--3p1-----------1------------------1---5p3/1--1--||
B||---3---3----------------3-----------3------3---3--------3------------------||
G||----------------------------------2---2-------2-------2---------------------||
D||-0-----------------------------0-------------------0------------------------||
A||----------------------------------------------------------------------------||
E||-----------------------------------------------------------------------------||
-

E||-----1---3p1--5-5p3--1-----1---1--3/5\1--------------------------||
B||---3---3-------------------3---3-----------------------------------||
G||-------------------------------------------------------------------||
D||-0---------------------0-------------------------------------------||
A||-------------------------------------------------------------------||
E||-------------------------------------------------------------------||

e-Cards (1)

2018-02-02 16:58:08
Faleminderit qe me le
Sot mos qaj se ike dje dhe jo
Neser kur nata
ne udhkryq te ze
Mos u kthe, mos u kthe
Arsye ske

Add an e-Card

Fullscreen



more...




Kjo faqe përdor cookies vetëm për reklama dhe statistika. Kjo faqe nuk mbledh, nuk përdor dhe nuk shpërndan të dhënat tuaja. Kompanitë e palëve të treta që përdorin cookies janë: Google, Taboola dhe MGID.
Më shumë info  
lyrics.al © 2007 - 2018